More

    Zombie, The Cranberries

    E |--7h8-5h7-3h5---2h3p2--------|
    B |--------------5-------3-3----|
    G |--------------------------4--|  
    D |-----------------------------|
    A |-----------------------------|
    E |-----------------------------|
    la guitarra 1 toca los acordes Em, C, G, D/F#
    

    Emย ย ย ย ย ย ย ย  C

    Another head hangs lowly

    Gย ย ย ย ย ย ย ย ย ย ย ย ย ย ย ย  D

    Child is slowly taken

    Emย ย ย ย ย ย ย ย ย ย ย ย ย ย ย ย ย  C

    And the violence caused such silence

    Gย ย ย ย ย ย ย ย ย ย ย ย ย  D

    Who are we mistaken

    Em

    but you see, it’s not me

    C

    it’s not my family

    G

    in your head, in your head

    D

    they are fighting

    Em

    With their tanks, and their bombs,

    C

    and their bombs, and their guns

    Gย ย ย ย ย ย ย ย ย ย ย ย ย ย ย ย ย ย ย ย ย ย ย ย ย ย ย  D

    In your head, in your head they are cryin’

     

     

    CHORUS:

    Emย ย ย ย ย ย ย ย ย ย ย ย  C

    In your head, In your head

    Gย ย ย ย ย ย ย ย ย ย ย ย ย ย  D

    Zombie, zombie, zombie รชh รชh

    Emย ย ย ย ย ย ย ย ย ย ย  C

    What’s in your head, in your head

    Gย ย ย ย ย ย ย ย ย ย ย ย ย  D

    Zombie, zombie, zombie รชh รชh รชh รดh

     

    Emย ย ย ย ย ย ย ย ย ย ย ย  C

    Another mother’s breakin’

    Gย ย ย ย ย ย ย ย ย ย ย ย ย ย  D

    heart is taking over

    Emย ย ย ย ย ย ย ย ย ย ย ย  C

    when the violence causes such silence

    Gย ย ย ย ย ย ย ย ย ย ย ย ย ย  D

    we must be mistaken

    Emย ย ย ย ย ย ย ย ย ย ย ย  C

    it’s the same old theme since 1916

    Gย ย ย ย ย ย ย ย ย ย ย  ย ย ย D

    in your head,

    Emย ย ย ย ย ย ย ย ย ย ย ย  C

    in your head they’re still fightin’

     

    CHORUS:

    Emย ย ย ย ย ย ย ย ย ย ย ย  C

    In your head, In your head

    Gย ย ย ย ย ย ย ย ย ย ย ย ย ย  D

    Zombie, zombie, zombie รชh รชh

    Emย ย ย ย ย ย ย ย ย ย ย  C

    What’s in your head, in your head

    Gย ย ย ย ย ย ย ย ย ย ย ย  D

    Zombie, zombie, zombie รชh รชh รชh รดh

     

     

    Gย ย ย ย ย ย ย ย ย ย ย ย ย ย  D

    With their tanks and their bombs

    Emย ย ย ย ย ย ย ย ย ย ย ย  C

    And their bombs and their guns

    Gย ย ย ย ย ย ย ย ย ย ย ย ย ย  D

    In your head, in your head they are dying

    Solo:

    E |--7h8-5h7-7-7-7---7h8-5h7-7-7-7---7h8-5h7-7-7-7--|
    B |-------------------------------------------------|
    G |-------------------------------------------------|
    D |-------------------------------------------------|
    A |-------------------------------------------------|
    E |-------------------------------------------------|
    
    E |--7h8-5h7-2222--2-3-5-2222--2-3-5-2222--2-3-5-2222-0-2s5-5-7-7-5555--|
    B |----------0000--0-0-0-0000--0-0-0-0000--0-0-0-0000-0-0---0-0-0-0000--|
    G |---------------------------------------------------------------------|
    D |---------------------------------------------------------------------|
    A |---------------------------------------------------------------------|
    E |---------------------------------------------------------------------|
    
    E |--5-7-7-5555--5s2-2-2-0-0-22--2-3-5-2222--2-3-5-2222--2-3-5-2--2-0-0--|
    B |--0-0-0-0000--0---0-0-0-0-00--0-0-0-0000--0-0-0-0000--0-0-0-0--0-0-0--|
    G |----------------------------------------------------------------------|
    D |----------------------------------------------------------------------|
    A |----------------------------------------------------------------------|
    E |----------------------------------------------------------------------|
    

     

    [su_accordion][su_spoiler title=ยปAcordesยป open=ยปnoยป style=ยปdefaultยป icon=ยปplusยป anchor=ยปยป class=ยปยป]

    [jtab phrase=ยปEmยป][jtab phrase=ยปCยป][jtab phrase=ยปGยป][jtab phrase=ยปDยป][jtab phrase=ยปF#ยป]

    [/su_spoiler] [/su_accordion]

    [embedyt] https://www.youtube.com/watch?v=6Y_fY5Raj9g[/embedyt]

    รšltimos artรญculos

    Artรญculo anteriorLo nuevo de Metastasys
    Artรญculo siguienteCinco datos curiosos de Jimi Hendrix

    Related articles