Zombie, The Cranberries

0
897
E |--7h8-5h7-3h5---2h3p2--------|
B |--------------5-------3-3----|
G |--------------------------4--|  
D |-----------------------------|
A |-----------------------------|
E |-----------------------------|
la guitarra 1 toca los acordes Em, C, G, D/F#

Em         C

Another head hangs lowly

G                 D

Child is slowly taken

Em                  C

And the violence caused such silence

G              D

Who are we mistaken

Em

but you see, it’s not me

C

it’s not my family

G

in your head, in your head

D

they are fighting

Em

With their tanks, and their bombs,

C

and their bombs, and their guns

G                            D

In your head, in your head they are cryin’

 

 

CHORUS:

Em             C

In your head, In your head

G               D

Zombie, zombie, zombie êh êh

Em            C

What’s in your head, in your head

G              D

Zombie, zombie, zombie êh êh êh ôh

 

Em             C

Another mother’s breakin’

G               D

heart is taking over

Em             C

when the violence causes such silence

G               D

we must be mistaken

Em             C

it’s the same old theme since 1916

G               D

in your head,

Em             C

in your head they’re still fightin’

 

CHORUS:

Em             C

In your head, In your head

G               D

Zombie, zombie, zombie êh êh

Em            C

What’s in your head, in your head

G             D

Zombie, zombie, zombie êh êh êh ôh

 

 

G               D

With their tanks and their bombs

Em             C

And their bombs and their guns

G               D

In your head, in your head they are dying

Solo:

E |--7h8-5h7-7-7-7---7h8-5h7-7-7-7---7h8-5h7-7-7-7--|
B |-------------------------------------------------|
G |-------------------------------------------------|
D |-------------------------------------------------|
A |-------------------------------------------------|
E |-------------------------------------------------|

E |--7h8-5h7-2222--2-3-5-2222--2-3-5-2222--2-3-5-2222-0-2s5-5-7-7-5555--|
B |----------0000--0-0-0-0000--0-0-0-0000--0-0-0-0000-0-0---0-0-0-0000--|
G |---------------------------------------------------------------------|
D |---------------------------------------------------------------------|
A |---------------------------------------------------------------------|
E |---------------------------------------------------------------------|

E |--5-7-7-5555--5s2-2-2-0-0-22--2-3-5-2222--2-3-5-2222--2-3-5-2--2-0-0--|
B |--0-0-0-0000--0---0-0-0-0-00--0-0-0-0000--0-0-0-0000--0-0-0-0--0-0-0--|
G |----------------------------------------------------------------------|
D |----------------------------------------------------------------------|
A |----------------------------------------------------------------------|
E |----------------------------------------------------------------------|

 

[su_accordion][su_spoiler title=»Acordes» open=»no» style=»default» icon=»plus» anchor=»» class=»»]

[jtab phrase=»Em»][jtab phrase=»C»][jtab phrase=»G»][jtab phrase=»D»][jtab phrase=»F#»]

[/su_spoiler] [/su_accordion]

[embedyt] https://www.youtube.com/watch?v=6Y_fY5Raj9g[/embedyt]

Leave a reply

Por favor ingrese su comentario!
Por favor ingrese su nombre aquí